web space | free hosting | Web Hosting | Free Website Submission | shopping cart | php hosting
The Love Song

tabbed by origin x
Dropped D tuning

Verse A (Guitar 1)
e-----13-12\---------13-12\-----------------------
B-------------------------------------------------
G-10------------10--------------------------------
D-------------------------------------------------
A-------------------------------------------------
D-------------------------------------------------

Verse A (Bass)
D-0---0-0---0-0---0-0-----------------------------


Chorus A (Guitar 1)               Fill 1 (let ring)
e-------------------------------|------------------
B-------------------------------|------------------
G-------------------------------|------------------
D-6-0---0-3-5--0-6-0---0-3-5-3--|----0-------------
A-6-0---0-3-5--0-6-0---0-3-5-3--|----0-------------
D-6-0---0-3-5--0-6-0---0-3-5-3--|----0-------------
("Do you love your guns?")

Riff A (Guitar 1)
e--------------------------------------------------
B--------------------------------------------------
G--------------------------------------------------
D-0-0-0-0-2-2-2-2-3-3-3-3-7-7-7-7------------------
A-0-0-0-0-2-2-2-2-3-3-3-3-7-7-7-7------------------
D-0-0-0-0-2-2-2-2-3-3-3-3-7-7-7-7------------------

Fill 1/Riff1 (bass)
D-0-0---0-2-2---0-3-3---0-7-7-7-7------------------

Verse B (Guitar 2)
e--------------------------------------------------
B--------------------------------------------------
G-7-7-7-7-9-9-9-9-10-10-10-10/2-2-2-2--------------
D--------------------------------------------------
A-5-5-5-5-7-7-7-7--8--8--8--8/0-0-0-0--------------
D--------------------------------------------------

Riff B (Guitar 2)
e-10^-10^-10^--12^-12^-12^--13^-13^-13^--17^-17^-17^-
B----------------------------------------------------
G----------------------------------------------------
D----------------------------------------------------
A----------------------------------------------------
D----------------------------------------------------

Chorus B (Guitar 2)
e-12^--12^--12^----12^--12^--12^----22--21---22--21--
B----------------------------------------------------
G----------------------------------------------------
D----------------------------------------------------
A----------------------------------------------------
D----------------------------------------------------

Verse A
Chorus A
Riff A
Verse B
Verse A, B
Chorus A
Verse B
Riff A
Riff A, B
Chorus A, B



Back