web space | free website | Business Web Hosting | Free Website Submission | shopping cart | php hosting
Kinderfeld

tabbed by origin x
Tuned down half a step
EADGBe becomes Eb,Ab,Db,Gb,Bb,eb

Bass Verse twice then:
Gb-----------------------|-------------------------------
Db----2--2--2--2----0-2--|----2--2--2--2--0-2-3----------
Ab----------------2------|-------------------------------
Eb-0---------------------|-0-----------------------------
("He lives inside my mouth...")

Chorus end on
eb----------------------|--------------------------------
Bb----------------------|--------------------------------
Gb-9-9-9-9--8---8-8-8---|--9-9-9-9---8---7---------------
Db-9-9-9-9--8---8-8-8---|--9-9-9-9---8---7---------------
Ab-7-7-7-7--6---6-6-6---|--7-7-7-7---6---5---------------
Eb-7-7-7-7--6---6-6-6---|--7-7-7-7---6---5---------------
("Then I got my wings...")

Verse (Synthasizer arranged for guitar)
eb------------------------13-------------------------13--
Bb-13---12------12---11--------13---12-----12---11-------
Gb-------------------------------------------------------
Db-------------------------------------------------------
Ab-------------------------------------------------------
Eb-------------------------------------------------------

Solo (weirdness arraned for guitar)
eb-6-7-8-0---0-7-8-0---0-0-7-8---0-7-8-0-12-12-12--------
Bb-------------------------------------------------------
Gb-------------------------------------------------------
Db-------------------------------------------------------
Ab-------------------------------------------------------
Eb-------------------------------------------------------
(continued)
eb-12-12-10h12--------12-15--------12-12-12-10-10--------
Bb-------------10-8---------10-12-----------------12-12--
Gb-------------------------------------------------------
Db-------------------------------------------------------
Ab-------------------------------------------------------
Eb-------------------------------------------------------

(continued)
eb-12-12-10h12-----12-12---------------------------------
Bb--------------8----------------------------------------
Gb-------------------------------------------------------
Db-------------------------------------------------------
Ab-------------------------------------------------------
Eb-------------------------------------------------------

Bridge A (Guitar 1)
eb-x-x--12-11---12-11--x-x--12-11---12-11-12-14----------
Bb-------------------------------------------------------
Gb-------------------------------------------------------
Db-------------------------------------------------------
Ab-------------------------------------------------------
Eb-------------------------------------------------------
("Because...today is black...")

Bridge B (Guitar 2)
eb---------------------10--------------------------------
Bb-12-11----12-11-----------12-11----12-11---------------
Gb----------------11-9---------------------11-9-11-------
Db-------------------------------------------------------
Ab-------------------------------------------------------
Eb-------------------------------------------------------

Outro A (Guitar 1) Outro B (Guitar 2, palm muted)
eb-15---14----13---11---|--------------------------------
Bb----------------------|--------------------------------
Gb----------------------|--------------------------------
Db----------------------|-2-2-2-2-2-2-2-2--2-2-2-2-------
Ab----------------------|-2-2-2-2-2-2-2-2--2-2-2-2-------
Eb----------------------|-0-0-0-0-0-0-0-0--0-0-0-0------- ("The taste of metal...")

Bass-Verse
Chorus
Bass-Verse, Verse
Bass-Verse, Verse, Solo
Chorus, Verse
Bridge A, B
Bass-Verse, Outro A
Bass-Verse, Outro A, B



Back