web space | free website | Business Hosting Services | Free Website Submission | shopping cart | php hosting
The Beautiful People
tuning: (low to high: D A D B G e)
tabbed by daria - daria6666@hotmial.com

p.m.=palm mute
h=hammer-on

Intro:
|---------------|
|---------------|
|---------------|
|--3-3-3-3-3-3--|
|--3-3-3-3-3-3--|
|--3-3-3-3-3-3--|
p.m.----------

|-----------------------------|-------------------------------
|-----------------------------|-------------------------------
|-----------------------------|-------------------------------
|--0h3-0--0h3-0--0h3-0--0h3-0-|--0h6--0h6--0--0h6--0h6--0-----
|--0h3-0--0h3-0--0h3-0--0h3-0-|--0h6--0h6--0--0h6--0h6--0-----
|--0h3-0--0h3-0--0h3-0--0h3-0-|--0h6--0h6--0--0h6--0h6--0-----

|----------|
|----------|
|----------|
|--0h3-0---|
|--0h3-0---|
|--0h3-0---|

0:58
|---------------|
|---------------|
|---------------|
|--3-3-3-3-3-3--|
|--3-3-3-3-3-3--|
|--3-3-3-3-3-3--|
p.m.----------

1:11
|-----------|-----------|-------------|
|-----------|-----------|-------------|
|--7-6-5-4--|--7-6-5-4--|-------------|
|--7-6-5-4--|--7-6-5-4--|--3-3-3-3-3--|
|--5-4-3-2--|--5-4-3-2--|--3-3-3-3-3--|
|-----------|-----------|--3-3-3-3-3--|
                           p.m.-----

Chorus:
|------------------------------------|
|------------------------------------|
|------------------------------------|
|--0h6--0h6--0--0h6--0h6--0--0h3--0--|
|--0h6--0h6--0--0h6--0h6--0--0h3--0--|
|--0h6--0h6--0--0h6--0h6--0--0h3--0--|

Ahhh...:and verse 2:

|---------------|---------------|
|---------------|---------------|
|---------------|---------------|
|--0-0--0h3--0--|--3-3-3-3-3-3--|
|--0-0--0h3--0--|--3-3-3-3-3-3--|
|--0-0--0h3--0--|--3-3-3-3-3-3--|
                   p.m.-------

|------------------------------------|
|------------------------------------|
|------------------------------------|
|--0h6--0h6--0--0h6--0h6--0--0h3--0--|
|--0h6--0h6--0--0h6--0h6--0--0h3--0--|
|--0h6--0h6--0--0h6--0h6--0--0h3--0--|

|-----------|-----------|---------------|
|-----------|-----------|---------------|
|--7-6-5-4--|--7-6-5-4--|---------------|
|--7-6-5-4--|--7-6-5-4--|--3-3-3-3-3-3--|
|--5-4-3-2--|--5-4-3-2--|--3-3-3-3-3-3--|
|-----------|-----------|--3-3-3-3-3-3--|
                           p.m.-------

|------------------------------------|
|------------------------------------|
|------------------------------------|
|--0h6--0h6--0--0h6--0h6--0--0h3--0--|
|--0h6--0h6--0--0h6--0h6--0--0h3--0--|
|--0h6--0h6--0--0h6--0h6--0--0h3--0--|

|---------------|---------------|
|---------------|---------------|
|---------------|---------------|
|--0-0--0h3--0--|--3-3-3-3-3-3--|
|--0-0--0h3--0--|--3-3-3-3-3-3--|
|--0-0--0h3--0--|--3-3-3-3-3-3--|
                   p.m.--------

|------------------------------------|
|------------------------------------|
|------------------------------------|
|--0h6--0h6--0--0h6--0h6--0--0h3--0--| x 4
|--0h6--0h6--0--0h6--0h6--0--0h3--0--|
|--0h6--0h6--0--0h6--0h6--0--0h3--0--|

ending:
|--------------------------------------------------------------
|--------------------------------------------------------------
|--------------------------------------------------------------
|--0h6--0h6--0--0h6--0h6--0--0h3--0--0h6--0h6--0--0h6--0h6--0--
|--0h6--0h6--0--0h6--0h6--0--0h3--0--0h6--0h6--0--0h6--0h6--0--
|--0h6--0h6--0--0h6--0h6--0--0h3--0--0h6--0h6--0--0h6--0h6--0--

|-----------|
|-----------|
|-----------|
|--6-5-3-0--|
|--6-5-3-0--|
|--6-5-3-0--|


Back