web space | free website | Business Hosting | Free Website Submission | shopping cart | php hosting


Free Web Hosting - Watch Free Movies Online - Watch Free TV Online - Free Web Pages

Find the cheapest Local Gas Prices and Gas Stations in your neighborhood and surrounding area.
King Kill 33

tabbed by origin x

Dropped D Tuning

Intro (Synthesizer transcribed for guitar)
e----------------------------------------
B----------------------------------------
G----------------------------------------
D-0-0---0---------0---10h12---0---12p10--
A-0-0---0---------0---10h12---0---12p10--
D-0-0---0---------0---10h12---0---12p10--
  ^-^
  Just hit lightly

e----------------------
B----------------------
G----------------------
D-0---10h12---0--6-6-6-
A-0---10h12---0--6-6-6-
D-0---10h12---0--6-6-6-

Verse A
e-----------------------------------------
B-----------------------------------------
G-----------------------------------------
D--0-10h12--0-10h12--0-10h12--0-12p10-----
A--0-10h12--0-10h12--0-10h12--0-12p10-----
D--0-10h12--0-10h12--0-10h12--0-12p10-----

e---------------------------------------
B---------------------------------------
G---------------------------------------
D--0-10h12--0-10h12--0-10h12--0-6-6-6---
A--0-10h12--0-10h12--0-10h12--0-6-6-6---
D--0-10h12--0-10h12--0-10h12--0-6-6-6---

Verse B (Synthesizer transcribed for guitar 2)
e-18--------------------18--------------
B------17--20----------------17--20-----
G--------------18--16-------------------
D---------------------------------------
A---------------------------------------
D---------------------------------------



Back