web space | free website | Business WebSite Hosting | Free Website Submission | shopping cart | php hosting
I Want to Disappear

tabbed by origin x

Dropped D

Verse A (Guitar 1)                   Verse B (Guitar 2)
e----------------------------------|-16-16-16-16-16-16--
B----------------------------------|--------------------
G----------------------------------|--------------------
D----------------6^-6^-6^-6^-6^-6^-|--------------------
A----------------------------------|--------------------
D-1-1-1-4-1-6-1--------------------|--------------------
("Look at me now...")

Pre-Chorus
e-------------------------------------------------------
B-------------------------------------------------------
G-------------------------------------------------------
D-7-7-7-7-7-7-7-7-7-7-7-7-4-4-4-4-4-4-4-4-4-4-4-4-------
A-------------------------------------------------------
D-------------------------------------------------------
("I'm a milion different things...")

Chorus
e-------------------------------------------------------
B-------------------------------------------------------
G-8-8-6-8-8-10^--6-8-8---8-8-6-8-8-10^--6-8-8-----------
D-8-8-6-8-8-10^--6-8-8---8-8-6-8-8-10^--6-8-8-----------
A-6-6-4-6-6--8^--4-6-6---6-6-4-6-6--8^--4-6-6-----------
D-------------------------------------------------------
("Hey and our mommies are lost...")

(coninued, end on:)
e-------------------------------------------------------
B-------------------------------------------------------
G-9-9-9-9-9-9-9-9--6-6-6-6-6-6-6-6--8-8-8-8-6-8-8-8-----
D-9-9-9-9-9-9-9-9--6-6-6-6-6-6-6-6--8-8-8-8-6-8-8-8-----
A-7-7-7-7-7-7-7-7--4-4-4-4-4-4-4-4--6-6-6-6-4-6-6-6-----
D-------------------------------------------------------
("And I know...")

Post-Chorus
e------16h17p16-----------------------------------------
B----------------16---14-16-16-16-----------------------
G-------------------------------------------------------
D-1-1---------------------------------------------------
A-1-1---------------------------------------------------
D-1-1---------------------------------------------------
("I wanna disappear...")

Bridge A (Guitar 1)
e-------------------------------------------------------
B-------------------------------------------------------
G-------------------------------------------------------
D-7-------\4--------7-------\16-------------------------
A-x-(x12)-\x-(x12)--x-(x12)-\x--(x12)-------------------
D-7-------\4--------7-------\16-------------------------

Bridge B (Guitar 2)
e-------------------------------------------------------
B-------------------------------------------------------
G-------------------------------------------------------
D--4-6-7-7-7-7-7-7---4-6-7-7-7-7-7-7--------------------
A-------------------------------------------------------
D-------------------------------------------------------

Verse A
Verse A, B
Pre-Chorus
Chorus
Post-Chorus
Verse A
Verse A, B
Pre-Chorus
Chorus
Post-Chorus
Bridge A, B
Chorus



Back