web space | website hosting | Business Hosting | Free Website Submission | shopping cart | php hosting
Fundamentally Loathsome

tabbed by origin x

Verse 1 (Piano arranged for Guitar 1, played slow)
e----8----8-----7---7--------8----8-----7---7-------
B---10---10-----8---8-------10---10-----8---8-------
G---------------------------------------------------
D---------------------------------------------------
Bass
A---------------------------------------------------
E-5----5----4-3---3-0-3-4-5----5----4-3---3-0-3-4-5-
("I want to wake up...")

Verse 1 (continued)
e----8----8-----7---7-----9----8-7-7-7--------------
B---10---10-----8---8-----7----6-5-5-5--5-6-7-8-----
G---------------------------------------------------
D---------------------------------------------------
Bass
A---------------------------------------7\----------
E-5----5----4-3---3---3-2---1--0-0-0-0--------------

Verse 2 (Piano arranged for Guitar 1)
e-10--10--10--10--------------14--14--14------------
B--8---8---8---8--15-14-13-12-12--12--12------------
G---------------------------------------------------
D---------------------------------------------------
Bass
A----------------------------------9----------------
E--3---3---3---3-----/---------7-------7------------
("When I hate it...")

Verse 2 (continued)
e----------10--10--9--9--7--7--5--------------------
B-12-11-10--8---8--7--7--5--5--3-5-6-7-8------------
G---------------------------------------------------
D---------------------------------------------------
Bass
A---------------5--------------5-5\-----------------
E-7\--------3------2--2--0--0-----------------------

Solo 1
e---------------------------------------------------
B---------------------------------------------------
G-----------------------------------------7-9-12^-9^
D-7h9p7-------------------------5h7p5-7/9-----------
A-------9-7-----------------5/7---------------------
E-----------9-7-5-/-12^-12--------------------------

Solo 1 (continued)
e-------9-10-12^-12^-12^--15^\12-12-12^-15^-15-15/12
B---------------------------------------------------
G-7/9-9---------------------------------------------
D---------------------------------------------------
A---------------------------------------------------
E---------------------------------------------------

Solo 1 (continued)
e-12-10-12-15-15-14-12-10/12^--12-12-12-------------
B---------------------------------------12^---------
G-------------------------------------------12p11h12
D---------------------------------------------------
A---------------------------------------------------
E---------------------------------------------------

Solo 1 (continued)
e---------------------------------------------------
B-10-12^p10-----------------------------------------
G-----------12-/-7--9^--9^--9^----------------------
D---------------------------------------------------
A---------------------------------------------------
E---------------------------------------------------

Fill      Riff 1
e--------|------------------------------------------
B--------|------------------------------------------
G--------|-7---------6------------------------------
D-2------|-5---------4----------7/9---------7-8-----
A-2-(x8)-|---x-x-x-x---x-x-x-x--5/7-x-x-x-x-7-8-----
E-0------|---0-0-0-0---0-0-0-0------0-0-0-0-5-6-----
            ^p-mute   ^p-mute      ^p-mute____|

Solo 2
e------------------------------12-12h14-14-14-14-14-
B-----12-----10/12^-10------------------------------
G-9^-----12^-----------12^-9-9----------------------
D---------------------------------------------------
A---------------------------------------------------
E---------------------------------------------------

Solo 2 (continued)
e-15^-14-12-11-11-11-11/12-12-12-12-12-10-----------
B-----------------------------------------12-12^----
G---------------------------------------------------
D---------------------------------------------------
A---------------------------------------------------
E---------------------------------------------------

Riff 2
e---------------------------------------------------
B---------------------------------------------------
G-4-4-4-4--6-6-6-6--5-5-5-5-5-5--4-4-4-4-4/7^-------
D-x-x-4-x--x-x-6-x--5-5-5-5-5-5--4-4-4-4-4/7^-------
A-2-2-2-2--4-4-4-4--3-3-3-3-3-3--2-2-2-2-2/5^-------
E---------------------------------------------------

Solo 3
e---------------------------------------------------
B-11h12-11---------------------------7h8-7-10^-8----
G----------12-9-9-12-------------7-9----------------
D--------------------9\----7-7h8--------------------
A---------------------------------------------------
E-----------------------/8--------------------------

Riff 3
e---------------------------------------------------
B---------------------------------------------------
G---------------------------------------------------
D-2-2-2-2-2-2--5-5-5-5-5-5--8-x-x-x-x--8-x-x-x-x----
A-2-2-2-2-2-2--5-5-5-5-5-5--8-x-x-x-x--8-x-x-x-x----
E-0-0-0-0-0-0--3-3-3-3-3-3--6-x-x-x-x--6-x-x-x-x----
("Shoot myself to love you...")

Riff 3 (continued)
e---------------------------------------------------
B---------------------------------------------------
G---------------------------------------------------
D-7-x-x-x-x--7-x-x-x-x------------------------------
A-7-x-x-x-x--7-x-x-x-x------------------------------
E-5-x-x-x-x--5-x-x-x-x------------------------------

Verse A
Verse B
Verse A
Verse B
Verse A, Solo 1
Fill to Riff 1, Solo 2
Riff 2, Solo 3
Riff 3



Back