web space | free hosting | Business Hosting | Free Website Submission | shopping cart | php hosting
The Fall of Adam

tabbed by origin x

In standard tuning, but you can use a capo in the first fret to play the song easier.

Verse 1 (Accoustic)
e---1-1-1---1----1-1-1---1----1-1-1---1----1-1-1---1-
B-1-1-1-1-1-1--1-1-1-1-1-1--1-1-1-1-1-1--1-1-1-1-1-1-
G-1-1-1-1-1-1--1-1-1-1-1-1--1-1-1-1-1-1--1-1-1-1-1-1-
D-3-3-----3-3--1-1-----1-1--0-0-----0-0--------------
A----------------------------------------4-4-----4-4-
E----------------------------------------------------
("The Abraham Lincoln town cars...")

Verse 2A (Guitar 1, palm muted with distortion)
e----------------------------------------------------
B----------------------------------------------------
G----------------------------------------------------
D-3-------4-------3-------3-------4------3-----------
A-3-(x8)--4-(x3)--3-(x5)--3-(x8)--4-(x3)-3-(x5)------
E-1-------2-------1-------1-------2------1-----------

Verse 2B (Synthasizer arranged for Guitar 2)
e----------------------------------------------------
B----5-----6^--5-----5-------3-----------------------
G-3-----3---------3-------4-----4--3-----------------
D----------------------------------------------------
A----------------------------------------------------
E----------------------------------------------------

Verse 1
Verse 2A, 2B

A fairly simple song, but the chords are hard to pull off without a capo.



Back