web space | website hosting | Business Hosting | Free Website Submission | shopping cart | php hosting
Dried Up, Tied and Dead to the World

tabbed by origin x

Intro
e-------------------------------------------------------
B-------------------------------------------------------
G-------------------------------------------------------
D-------------------------------------------------------
A-7----7-7-7-7----7-7-7-5----5-5-5-5-7------------------
E-0----0-0-0-0----0-0-0-0----0-0-0-0-0------------------

Verse 1
e-------------------------------------------------------
B------------12-12---------------12-12------------------
G-10\9----12-12-12----10\9----12-12-12------------------
D-10\9----------------10\9------------------------------
A--8\7-----------------8\7------------------------------
E-------------------------------------------------------
("Cake on some more make-up...")

Riff
e-12-13-12---12-13-12---12-13-12-13-15-16^--------------
B-------------------------------------------------------
G-------------------------------------------------------
D-------------------------------------------------------
A-------------------------------------------------------
E-------------------------------------------------------
("Don't you want some of this?")

Verse 2
e-------------------------------------------------------
B-------------------------------------------------------
G-------------------------------------------------------
D-----------------5-5-5h7-7-------------------2---------
A-7-7-7p5h7p5h7---------------7-7-7p5h7p5h7---2---------
E---------------------------------------------0---------

Chorus (each hit 8 times)
e-------------------------------------------------------
B-------------------------------------------------------
G-------------------------------------------------------
D-------------------------------------------------------
A-7---5---2---3---7---5---2---3-------------------------
E-0---0---0---0---0---0---0---0-------------------------
("I'll be your lover...")

Bridge (clean)
e-------------------------------------------------------
B-------------------------------------------------------
G-9-9-9-7-7-9--12------/14-14---9-9-9-7-7-9-------------
D-9-9-9-7-7-9--12-(x8)-/14-14---9-9-9-7-7-9--2----------
A-7-7-7-5-5-7--12------/12-12---7-7-7-5-5-7--2----------
E--------------------------------------------0----------

Outro A (Guitar 1, palm muted)
e-------------------12^---------------------12^---------
B-------------------------------------------------------
G-------------------------------------------------------
D-2-2---2-2---2-2---------2-2---2-2---2-2---------------
A-2-2---2-2---2-2---------2-2---2-2---2-2---------------
E-0-0---0-0---0-0---------0-0---0-0---0-0---------------

Outro B (Guitar 2)
e-------------------------------------------------------
B-5---4---3----5--4--3--------5---4---3----5--4--3------
G------------------------3^--------------------------3^-
D-------------------------------------------------------
A-------------------------------------------------------
E-------------------------------------------------------

Intro
Verse 1
Riff
Verse 2
Chorus
Riff
Verse 1
Chorus
Bridge, Verse 2
Chorus
Outro A
Outro A, B



Back