web space | free hosting | Business Web Hosting | Free Website Submission | shopping cart | php hosting
Deformography

tabbed by origin x

Dropped D

Intro
e-------------------------------------------------------
B-------------------------------------------------------
G-------------------------------------------------------
D-9-9--8-8\2--2-2--0h2-0h5---9-9--8-8\2--2-2--0h2-0h5---
A-------------------------------------------------------
D-------------------------------------------------------

Verse 1A (Guitar 1)
e-------------------------------------------------------
B-------------------------------------------------------
G-------------------------------------------------------
D-------------------------------------------------------
A-------------------------------------------------------
D-9-9--8-8\2--2-2--0h2-0h5---9-9--8-8\2--2-2--0h2-0h5---

Chorus
e-------------------------------------------------------
B-11-11-11-11-11-11-11-11-11----------------------------
G-10-10-10-10-10-10-10-10-10----------------------------
D-----------------------------10-10-10------------------
A-----------------------------10-10-10------------------
D-----------------------------10-10-10------------------
("You're such a dirty, dirty rock star...")

Verse 2
e-------------------------------------------------------
B-12-12-12-12-11-11-11---15-15-15-----------------------
G-------------------------------------------------------
D-----------------------------------14-12-14-12---------
A-------------------------------------------------------
D-------------------------------------------------------

Bridge
e-------------------------------------------------------
B-------------------------------------------------------
G-------------------------7-----------------------------
D-7-7-7-7-7---7-7-7-7-7---5-----------------------------
A-7-7-7-7-7---7-7-7-7-7---5-----------------------------
D-7-7-7-7-7---7-7-7-7-7---5-----------------------------

Verse 1B (Guitar 2, palm muted)
e-------------------------------------------------------
B-------------------------------------------------------
G-------------------------------------------------------
D-2-2-2-2-5-2---0-0-2---2-2-2-2-5-2---0-0-2-------------
A-2-2-2-2-5-2---0-0-2---2-2-2-2-5-2---0-0-2-------------
D-2-2-2-2-5-2---0-0-2---2-2-2-2-5-2---0-0-2-------------

Outro
e-------------------------------------------------------
B-------------------------------------------------------
G-------------------------------------------------------
D-------------------------------------------------------
A-------------------------------------------------------
D-1---2---3\----1---2---3\------------------------------

Intro
Verse 1A
Chorus
Verse 2
Verse 1A
Chorus
Bridge
Verse 1B
Verse 1A, 1B
Chorus
Chorus, Intro, Outro



Back