web space | free hosting | Business Hosting | Free Website Submission | shopping cart | php hosting
Cryptorchid

tabbed by origin x

Verse A (Guitar 1)
e-9----5----7----9----12----10----9----------------------
B--------------------------------------------------------
G--------------------------------------------------------
D--------------------------------------------------------
A--------------------------------------------------------
E--------------------------------------------------------
("Each time I make my mother cry...")

Verse B (Guitar 2)
e----------------------------------------------------14--
B-----12-11--------12-11-------12-11---------12-11-------
G-9------------9-----------9-----------8-9---------------
D--------------------------------------------------------
A--------------------------------------------------------
E--------------------------------------------------------

Chorus A (Synth for Guitar 1)
e--------------------------------------------------------
B-13--------10-11---10----13--------10-11---10-----------
G-12---12------10---10----12---12------10---10-----------
D-10---12-------8---------10---12-------8----------------
A------10------------8---------10------------8-----------
E--------------------------------------------------------
("Prick your finger it is done...")

Chorus B (Guitar 2)
e--------------------------------------------------------
B-13--------10-11---10----13--------10-11---10-----------
G------12----------------------12------------------------
D--------------------------------------------------------
A--------------------------------------------------------
E--------------------------------------------------------

Verse A
Verse A, B
Chorus A
Chorus A, B
Chorus A



Back