web space | free hosting | Business Web Hosting | Free Website Submission | shopping cart | php hosting
Cruci-fiction in Space

tabbed by origin x

Tuned down 1/2 step and dropped D

Verse A (Guitar 1, palm muted and repeated a lot)
eb----------------------------------------------
Bb----------------------------------------------
Gb----------------------------------------------
Db-0--0--0--0--0--0--0--0-----------------------
Ab-0--0--0--0--0--0--0--0-----------------------
Db-0--0--0--0--0--0--0--0-----------------------

Chorus A (Guitar 1)
eb----------------------------------------------
Bb----------------------------------------------
Gb-7-7-7-5-7------------------------------------
Db-7-7-7-5-7--3--5------------------------------
Ab-5-5-5-3-5--3--5------------------------------
Db------------3--5------------------------------
("This is evolution...")

Chorus B (Synthasizer arranged for guitar 2)
eb----------------------------------------------
Bb----------------------------------------------
Gb-13-13-11-9--11------13-13-11-9--11-----------
Db-----------------8-------------------8--------
Ab----------------------------------------------
Db----------------------------------------------

*Post-Chorus A (Guitar 1)
eb----------------------------------------------
Bb----------------------------------------------
Gb--7-7-7-7-7-7--5--5-5-5-5-5-------------------
Db--7-7-7-7-7-7--5--5-5-5-5-5-------------------
Ab--5-5-5-5-5-5--3--3-3-3-3-3-------------------
Db----------------------------------------------
("We are dead and tomorrow's cancelled...")

Post-Chorus B (Guitar 2)
eb----------------------------------------------
Bb--15--11--15---11--11---13--------------------
Gb----------------------------------------------
Db----------------------------------------------
Ab----------------------------------------------
Db----------------------------------------------

Bridge
eb----------------------------------------------
Bb----------------------------------------------
Gb----------------------------------------------
Db-6--5--3--0--0-0h1p0h1------------------------
Ab-6--5--3--0--0-0h1p0h1------------------------
Db-6--5--3--0--0-0h1p0h1------------------------
("In our space...")

Verse B (Guitar 2)
eb----------------------------------------------
Bb-9-8-9-8-6--9-8-9-----------------------------
Gb------------------5-7-------------------------
Db----------------------------------------------
Ab----------------------------------------------
Db----------------------------------------------

Verse A
Chorus A, B
Verse A
Chorus A, B
Post-Chorus A, B
Bridge
Verse A, B



Back