web space | website hosting | Business Hosting | Free Website Submission | shopping cart | php hosting
Count to 6 and Die (The Vacuum of Infinite Space Encompassing)

tabbed by origin x

Intro
G---------------------------------------------
D---------------------------------------------
A-7------7------7------7----------------------
E-0------0------0------0----------------------

Verse A (Piano arranged for guitar 1)
G---------------------------------------------
D---------------------------------------------
A---7---7---7---7---7---7---7----7------------
E-7---7---6---6---5---5---0---0---------------

Verse B (Piano arranged for guitar 2)
e-12-15-12-----12-15-12-----12-15-12-------------------
B----------12-----------11-----------10----------------
G----------------------------------------11-11-12-11-9-
D------------------------------------------------------
A------------------------------------------------------
E------------------------------------------------------

Verse C (Soft synthasizer arranged for guitar 3)
e----------17-19----17-----|----------17----------------
B-17-19-20-------20----19--|-17-19-20----20-19-20-19-17-
G--------------------------|----------------------------
D---------(3 times, then->)|----------------------------
A--------------------------|----------------------------
E--------------------------|----------------------------

Outro (Piano Arranged for guitar 1)
e---------------------------------------------
B---------------------------------------------
G---------------------------------------------
D---------------------------------------------
A-7------7------7-------7---------------------
E---7------6------5-------0-------------------

Intro
Verse A
Verse A, B
Verse A, B, C
Outro, Verse C (played by the lead guitar)



Back