web space | free website | Business Hosting Services | Free Website Submission | shopping cart | php hosting
Burning Flag

tabbed by origin x

Dropped D tuning

Verse 1A (Guitar 1)     Verse 1B (Guitar 2, a lot)
e----------------------|------------------------------
B----------------------|------------------------------
G----------------------|------------------------------
D-0-6-0---0-6-0--------|--x-x-x-x-x-x-----------------
A-0-6-0---0-6-0--------|--x-x-x-x-x-x-----------------
D-0-6-0---0-6-0--------|--x-x-x-x-x-x-----------------

Verse 2
e-----------------------------------------------------
B-----------------------------------------------------
G-----------------------------------------------------
D-3-0-0-x-x-x-3-0-0-x-x-x-3-0-0-x-x-x-x-x-x-x-0-6-0---
A-3-0-0-x-x-x-3-0-0-x-x-x-3-0-0-x-x-x-x-x-x-x-0-6-0---
D-3-0-0-x-x-x-3-0-0-x-x-x-3-0-0-x-x-x-x-x-x-x-0-6-0---

Fill     Pre-Chorus
e-------|---------------------------------------------
B-------|---------------------------------------------
G-------|---------------------------------------------
D-0-6-0-|-6-6-6-x-x-x-x-x-x-x--6-6-6-x-x-x-x-x-x-x----
A-0-6-0-|-6-6-6-x-x-x-x-x-x-x--6-6-6-x-x-x-x-x-x-x----
D-0-6-0-|-6-6-6-x-x-x-x-x-x-x--6-6-6-x-x-x-x-x-x-x----
          ("Multiply your death...")

Chorus
e-----------------------------------------------------
B-----------------------------------------------------
G-7-7-7-5-8--7-7-7-5-8--7-7-7-5-8--7-7-7--------------
D-7-7-7-5-8--7-7-7-5-8--7-7-7-5-8--7-7-7-3-3-3--------
A-5-5-5-3-6--5-5-5-3-6--5-5-5-3-6--5-5-5-3-3-3--------
D----------------------------------------3-3-3--------
("We are all just stars...")

Post-Chorus (clean, with effect)
e-----------------------------------------------------
B-----------------------------------------------------
G------5----------------5-----------------------------
D--4---5---4---1----4---5---4---1---------------------
A--4---3---4---1----4---3---4---1---------------------
D--4-------4---1----4-------4---1---------------------

Bridge
e-----------------------------------------------------
B-----------------------------------------------------
G-----------------------------------------------------
D--3p0---0---3p0---0h6--------------------------------
A--3p0---0---3p0---0h6--------------------------------
D--3p0---0---3p0---0h6--------------------------------

Verse 1A
Verse 1A, 1B
Verse 2
Verse 1A
Fill, Pre-Chorus
Chorus
Post-Chorus
Verse 1A
Verse 2
Fill, Pre-Chorus
Chorus
Post-Chorus
Bridge
Chorus



Back