web space | website hosting | Business Hosting Services | Free Website Submission | shopping cart | php hosting
Born Again

tabbed by origin x

Verse
e---------------------------------------|----------
B---------------------------------------|----------
G---------------------------------------|----------
D--2----6^/5-----2-----2----6^/5----2---|---6^/5-- Riff
A--2-------------2-----2------------2---|----------
E--0-------------0-----0------------0---|----------
("Do you or don't you...")

Pre-Chorus (All notes hit 8 times)
e--------------------------------------------------
B--------------------------------------------------
G--9---12---14---12----9---12---14---14---12---11--
D--9---12---14---12----9---12---14---14---12---11--
A--7---10---12---10----7---10---12---12---10----9--
E--------------------------------------------------
("I'll put down your disco...")

Chorus A (Guitar 1)
e--------------------------------------------------
B--------------------------------------------------
G-9----------------------9-------------------------
D-9-(x8)-10-(x8)-9-(x8)--9-(x8)-10-(x8)-9-(x8)-7-5-
A-7------10------9-------7------10------9------7-5-
E---------8------7---------------8------7------5-3-
("I'm someone else, I'm someone new...")

Break
e--------------------------------------------------
B--------------------------------------------------
G--12----11-----9----16----12----11-----9----16----
D---x-----x-----x-----x-----x-----x-----x-----x----
A--10-----9-----7----14----10-----9-----7----14----
E---0---0-0---0-0---0-0---0-0---0-0---0-0---0-0----
("The valley of the dolls...")

Chorus B (Guitar 2)
e--7----------------7-------5^----------------------
B------5---7^-----------5---------------------------
G---------------------------------------------------
D---------------------------------------------------
A---------------------------------------------------
E---------------------------------------------------

Verse
Pre-Chorus, Riff
Chorus A
Verse
Pre-Chorus, Riff
Chorus A
Break, Riff
Chorus A
Chorus A, B



Back