web space | free hosting | Business Hosting | Free Website Submission | shopping cart | php hosting
APPLE OF SODOM

tabbed by origin x

Standard tuning.

* = bend this kind of slow

riff 1
(verse riff: low volume with flanger. I'm pretty sure this is right but theres some synth going along with it that makes it kind of hard to hear the whole riff)

e||-----------------------------------------------------||
B||-----------------------------------------------------||
G||-----------------------------------------------------||
D||-----------------------------------------------------||
A||--7--7--7--7--7--7-7---7-7--7--7--7--7--7--7-7----7--||
E||--5--5--5--5--5--5-5---5-5--5--5--5--5--5--5-5----5--||

riff 2
(bridge riff: I dont know how marilyn manson make these kinds of sounds from a guitar because it kind of sounds like a toy guitar sort of)

e||-----------------------------------------------------------------||
B||-----------------------------------------------------------------||
G||-----------------------------------------------------------------||
D||------7-------7-------7-------7-------6-------6-------6-------6--||
A||--6-6---6-6-6---6---6---6-6-6---6-5-5---5-5-5---5---5-----5-5----||
E||-----------------------------------------------------------------||

riff 3 (ending riff: again this sounds like a toy guitar with a wierd effect. The same sounding effect from kinderfeld and wormboy where marilyn sings "When I got my wings and I never even knew it".)

e||--5p4p3h4-^6-----5p4p3h5-^6--||
B||--5----(4)^6-----5----(5)^6--||
G||----------*------------------||
D||-----------------------------||
A||-----------------------------||
E||-----------------------------||

Main Riff:

e|------------------------------------------------------------------|
b|------------------------------------------------------------------|
g|------------------------------------------------------------------|
d|----7---7--8--7--5---5h7---7---7--10--8--7---5h7------------------|
a|--0---0------------0-----0---0-------------0----------------------|
e|------------------------------------------------------------------|

That is Played through most of the song then in the middle of the song there is this solo.

Solo:

e|------------------------------------------------------------------|
b|--------9-------9-------8-------9---------------------------------|
g|----7-7---7-7-7---7-6-6---6-6-6-----------------------------------|
d|------------------------------------------------------------------|
a|------------------------------------------------------------------|
e|------------------------------------------------------------------|



Back