web space | free hosting | Business WebSite Hosting | Free Website Submission | shopping cart | php hosting
Antichrist Superstar

tabbed by origin x

Intro
e-------------------------------------------------------
B-------------------------------------------------------
G-4-4---4-4---4-4---4-4---4-4---4-4---4-4---4-4---------
D-4-4---4-4---4-4---4-4---4-4---4-4---4-4---4-4---------
A-2-2---2-2---2-2---2-2---2-2---2-2---2-2---2-2---------
E-------------------------------------------------------
("Hey...hey...hey...")

Pre-Chorus A (Guitar 1)
e-------------------------------------------------------
B-------------------------------------------------------
G-----------14^---------------------------10-9-7--------
D-9-9-12-9--14^---(all x3 then)--9-9-12-9-10-9-7--------
A-9-9-12-9--12^------------------9-9-12-9--8-7-5--------
E-7-7-10-7-----------------------7-7-10-7---------------

Verse
e-------------------------------------------------------
B-------------------------------------------------------
G-------------------------------------------------------
D-9-9-12-9---9-9-12-9---9-9-12-9---9-9-12-9-------------
A-9-9-12-9---9-9-12-9---9-9-12-9---9-9-12-9-------------
E-7-7-10-7---7-7-10-7---7-7-10-7---7-7-10-7-------------
("You built me up...")

Pre-Chorus B (Guitar 2)
e--------------------------12-12-12-12-12-12-12-12------
B-12-12-12-12-12-12-12-12-------------------------------
G-------------------------------------------------------
D-------------------------------------------------------
A-------------------------------------------------------
E-------------------------------------------------------

Chorus A (Guitar 1)
e-------------------------------------------------------
B-------------------------------------------------------
G-------------------------------------------------------
D-12-12-12-12--11-11--10-10---9-9-12-9---9-12-----------
A-12-12-12-12--11-11--10-10---9-9-12-9---9-12-----------
E-10-10-10-10---9--9---8--8---7-7-10-7---7-10-----------
("Cut the head off...")

Chorus B (Guitar 2)
e-14-14-14-14--13-13--12-12--10-10-10-10-10-10-10-10----
B--x--x--x--x---x--x---x--x---x--x--x--x--x--x--x--x----
G-11-11-11-11--10-10---9--9---7--7--7--7--7--7--7--7----
D-------------------------------------------------------
A-------------------------------------------------------
E-------------------------------------------------------

Intro Pre-Chorus A
Verse
Pre-Chorus A, B
Chorus A, B
Verse
Pre-Chorus A, B
Chorus A, B
Intro
Chorus A, B



Back