web space | free hosting | Business Hosting Services | Free Website Submission | shopping cart | php hosting
1996

tabbed by origin x

m = palm mute

Intro
e--------------------------------------------------------
B-------------------------------------0--------0---------
G-------------------------------------0--------0---------
D-5---0---0---2---0---0---0---0---2-------0----4---------
A-4---0---1---3---0---0---1---0---3-------0----5---------
E--------------------------------------------------------

Verse 1
e--------------------------------------------------------
B--------------------------------------------------------
G--------------------------------------------------------
D-2--2--5-7--8--8--8--7-5---2--2--5-7--8--8--8--7-5------
A-2--2--5-7--8--8--8--7-5---2--2--5-7--8--8--8--7-5------
E-0--0--3-5--6--6--6--5-3---0--0--3-5--6--6--6--5-3------

Chorus
e--------------------------------------------------------
B--------------------------------------------------------
G----------------------9--12--7--9-----------------------
D-2--5--8--7--2m-------9--12--7--9--2m-------------------
A-2--5--8--7--2m-(x5)--7--10--5--7--2m-(x5)--------------
E-0--3--6--5--0m--------------------0m-------------------

Riff 1
e--------------------------------------------------------
B--------------------------------------------------------
G--------------------------------------------------------
D-------------------5-5-5-5-5----------------------------
A-5/7-7-7---5/7-7---------------5/7-7-7-7-7--------------
E--------------------------------------------6-6-6-6-6---

Verse 2
e--------------------------------------------------------
B--------------------------------------------------------
G--------------------------------------------------------
D-8--8--8--7-5--------8--8--8--7-5-----------------------
A-8--8--8--7-5--------8--8--8--7-5-----------------------
E-6--6--6--5-3--------6--6--6--5-3-----------------------

Riff 2
e--------------------------------------------------------
B--------------------------------------------------------
G-9--------7/9--9--------12--------14--------15------17/-
D-x-(x16)--x----x-(x16)---x-(x16)---x-(x10)---x-(x4)--x--
A-7--------5/7--7--------10--------12--------13------15/-
E--------------------------------------------------------

Intro
Verse 1
Chorus
Verse 1, Riff 1
Verse 2
Verse 1
Chorus
Verse 1
Verse 1, Riff 2



Back