web space | free hosting | Business Hosting | Free Website Submission | shopping cart | php hosting



Date Hot Girls

Click Here!





Save Your Money

Click Here!





Target Audience (Narcissus Narcossis)
tuning: drop d (low to high: D A D G B e)
tabbed by daria - daria6666@hotmail.com

b=bend
p.m.=palm mute
\ and /=slide up and down

verse riff 1:
|---------0------1------0--------------------------------------|
|----3------3------3------3---3--1-----0-----1------0-----0----|
|------2------2------2------2------2-----2-----2------2--------|
|--0---------------------------------2-----2-----2------2------|
|--------------------------------------------------------------|
|--------------------------------------------------------------|

verse riff 2:
|-------------------------------------------------------------
|----1----0-----1-----0-----1-----1-----0-----1-----0---------
|------2----2-----2-----2-----2-----2-----2-----2-----2-------
|--0----------2-----2-----2-----2-----2-----2-----2-----2-----
|-------------------------------------------------------------
|-------------------------------------------------------------

|--0--------------------------------------0-----|
|----3---3--1-----0-----------0---------1-------|
|------2------2-----2-----2-----2-----2---------|
|---------------2-----2-----2-------2-----------|
|-----------------------0---------0-------------|
|-----------------------------------------------|

Chorus:
|--------10b---------------------10b-------------------|
|--------10b---------------------10b-------------------|
|------------------------------------------------------|
|--0-0--------3-3--3-3-3-3--2-2--------1-1/3-3-3-3-----|
|--0-0--------3-3--3-3-3-3--2-2--------1-1/3-3-3-3-----|
|--0-0--------3-3--3-3-3-3--2-2--------1-1/3-3-3-3-----|
                   p.m.---

After chorus:
|--------------------------------------|
|--1------0------1------0------0-------|
|----2------2------2------2------------|
|------2------2------2------2----------|
|--------------------------------------|
|--------------------------------------|

verse riff 1:
|---------0------1------0--------------------------------------|
|----3------3------3------3---3--1-----0-----1------0-----0----|
|------2------2------2------2------2-----2-----2------2--------|
|--0---------------------------------2-----2-----2------2------|
|--------------------------------------------------------------|
|--------------------------------------------------------------|

verse riff 2:
|-------------------------------------------------------------
|----1----0-----1-----0-----1-----1-----0-----1-----0---------
|------2----2-----2-----2-----2-----2-----2-----2-----2-------
|--0----------2-----2-----2-----2-----2-----2-----2-----2-----
|-------------------------------------------------------------
|-------------------------------------------------------------

|--0--------------------------------------0-----|
|----3---3--1-----0-----------0---------1-------|
|------2------2-----2-----2-----2-----2---------|
|---------------2-----2-----2-------2-----------|
|-----------------------0---------0-------------|
|-----------------------------------------------|

Chorus:
|--------10b---------------------10b-------------------|
|--------10b---------------------10b-------------------|
|------------------------------------------------------|
|--0-0--------3-3--3-3-3-3--2-2--------1-1/3-3-3-3-----|
|--0-0--------3-3--3-3-3-3--2-2--------1-1/3-3-3-3-----|
|--0-0--------3-3--3-3-3-3--2-2--------1-1/3-3-3-3-----|
                   p.m.---

2:21 2:35
|--------------------|---------------------------|
|--------------------|---------------------------|
|--------------12b---|---------------------------|
|--12--10--10--------|---------------------------|
|--------------------|----2---2/3\2----2---------|
|--------------------|--2---2--------3---3-2-----|

3:08
|----------------------------------------------------------------------|
|----------------------------------------------------------------------|
|--7-7-7-7-7-7-7--10-10-10-10-10-10-10--9-9-9-9-9-9-9--8-8-8-8-8-8-8---|
|--7-7-7-7-7-7-7--10-10-10-10-10-10-10--9-9-9-9-9-9-9--8-8-8-8-8-8-8---|
|--5-5-5-5-5-5-5---8--8--8--8--8--8--8--7-7-7-7-7-7-7--6-6-6-6-6-6-6---|
|----------------------------------------------------------------------|

Chorus: Guitar 2:
|--13-13-13--12-12-12-----------11-11-11--|
|----------------------11-11-11-----------|
|-----------------------------------------|
|-----------------------------------------|
|-----------------------------------------|
|-----------------------------------------|

Guitar 1:
|--------10b---------------------10b-------------------|
|--------10b---------------------10b-------------------|
|------------------------------------------------------|
|--0-0--------3-3--3-3-3-3--2-2--------1-1/3-3-3-3-----|
|--0-0--------3-3--3-3-3-3--2-2--------1-1/3-3-3-3-----|
|--0-0--------3-3--3-3-3-3--2-2--------1-1/3-3-3-3-----|
                   p.m.---

End on:
|-------|
|-------|
|-------|
|--0-0--|
|--0-0--|
|--0-0--|


Back