web space | free hosting | Business Hosting | Free Website Submission | shopping cart | php hosting
Free webhosting
The Nobodies
tuning: drop d (low to high: D A D G B e)
tabbed by daria - daria6666@hotmail.com

Intro/Verse:
|------------------------------------------------------------------
|----1----1----1----1----1----1----1----1----1----1----1----1------
|--2----2----2----2----2----2----2----2----2----2--------1-----1---
|----------------------------------------------------2-----2-----2-
|------------------------------------------------------------------
|------------------------------------------------------------------

|----------------------|
|----1----1----1----1--|
|--2----2----2----2----|
|----------------------|
|----------------------|
|----------------------|

Chorus:
*=play x8
|--------------------------------|
|--------------------------------|
|--------------------------------|
|--7*--10*--2*--7-7-7-7-5-5-5-5--|
|--7*--10*--2*--7-7-7-7-5-5-5-5--|
|--7*--10*--2*--7-7-7-7-5-5-5-5--|

Verse:
|------------------------------------------------------------------
|----1----1----1----1----1----1----1----1----1----1----1----1------
|--2----2----2----2----2----2----2----2----2----2--------1-----1---
|----------------------------------------------------2-----2-----2-
|------------------------------------------------------------------
|------------------------------------------------------------------

|----------------------|
|----1----1----1----1--|
|--2----2----2----2----|
|----------------------|
|----------------------|
|----------------------|

Chorus:
*=play x8
|--------------------------------|
|--------------------------------|
|--------------------------------|
|--7*--10*--2*--7-7-7-7-5-5-5-5--|
|--7*--10*--2*--7-7-7-7-5-5-5-5--|
|--7*--10*--2*--7-7-7-7-5-5-5-5--|

*=play x8
|------------------------------------------|
|------------------------------------------|
|------------------------------------------|
|--7*--3*--7*--3*--7*--3*--7*--3*--2-------|
|--7*--3*--7*--3*--7*--3*--7*--3*--2(x17)--|
|--7*--3*--7*--3*--7*--3*--7*--3*--2-------|

|------------------------------------------------------------------
|----1----1----1----1----1----1----1----1----1----1----1----1------
|--2----2----2----2----2----2----2----2----2----2--------1-----1---
|----------------------------------------------------2-----2-----2-
|------------------------------------------------------------------
|------------------------------------------------------------------

|----------------------|
|----1----1----1----1--|
|--2----2----2----2----|
|----------------------|
|----------------------|
|----------------------|

Outro\Chorus:
*=play x8
|--------------------------------|
|--------------------------------|
|--------------------------------|
|--7*--10*--2*--7-7-7-7-5-5-5-5--|
|--7*--10*--2*--7-7-7-7-5-5-5-5--|
|--7*--10*--2*--7-7-7-7-5-5-5-5--|


Back