web space | website hosting | Business WebSite Hosting | Free Website Submission | shopping cart | php hosting
Little Horn
tuning: drop d (low to high: D A D G B e)
tabbed by daria - daria6666@hotmail.com

*=palm mute

Intro\Verse:
|----------------------------------------------------------------|
|----------------------------------------------------------------|
|----------------------------------------------------------------|
|--3-0-0-3-0-0-3-0-0-3-0-0-3-0-5--3-0-0-3-0-0-3-0-0-3-0-0-6-5-3--|
|--3-0-0-3-0-0-3-0-0-3-0-0-3-0-5--3-0-0-3-0-0-3-0-0-3-0-0-6-5-3--|
|--3-0-0-3-0-0-3-0-0-3-0-0-3-0-5--3-0-0-3-0-0-3-0-0-3-0-0-6-5-3--|

|-----------------------------------|
|-----------------------------------|
|-----------------------------------|
|--6-6-6-6-6-6-6-6-6-6-6-6-6-6-5-3--|
|--6-6-6-6-6-6-6-6-6-6-6-6-6-6-5-3--|
|--6-6-6-6-6-6-6-6-6-6-6-6-6-6-5-3--|

Chorus: end of chorus
|---------------------------------------------------------|-----|
|---------------------------------------------------------|-----|
|---------------------------------------------------------|--4--|
|--0-0-0-0-0-6--3-0-5-0-1--3-0-0-3-0-0-3-0-0-3-0-0-3-0-5--|--5--|
|--0-0-0-0-0-6--3-0-5-0-1--3-0-0-3-0-0-3-0-0-3-0-0-3-0-5--|--5--|
|--0-0-0-0-0-6--3-0-5-0-1--3-0-0-3-0-0-3-0-0-3-0-0-3-0-5--|-----|
                  *   *      * *   * *   * *   * *   *

Verse 2:
|----------------------------------------------------------------|
|----------------------------------------------------------------|
|----------------------------------------------------------------|
|--3-0-0-3-0-0-3-0-0-3-0-0-3-0-5--3-0-0-3-0-0-3-0-0-3-0-0-6-5-3--|
|--3-0-0-3-0-0-3-0-0-3-0-0-3-0-5--3-0-0-3-0-0-3-0-0-3-0-0-6-5-3--|
|--3-0-0-3-0-0-3-0-0-3-0-0-3-0-5--3-0-0-3-0-0-3-0-0-3-0-0-6-5-3--|

|-----------------------------------|
|-----------------------------------|
|-----------------------------------|
|--6-6-6-6-6-6-6-6-6-6-6-6-6-6-5-3--|
|--6-6-6-6-6-6-6-6-6-6-6-6-6-6-5-3--|
|--6-6-6-6-6-6-6-6-6-6-6-6-6-6-5-3--|

Chorus: end of chorus
|---------------------------------------------------------|-----|
|---------------------------------------------------------|-----|
|---------------------------------------------------------|--4--|
|--0-0-0-0-0-6--3-0-5-0-1--3-0-0-3-0-0-3-0-0-3-0-0-3-0-5--|--5--|
|--0-0-0-0-0-6--3-0-5-0-1--3-0-0-3-0-0-3-0-0-3-0-0-3-0-5--|--5--|
|--0-0-0-0-0-6--3-0-5-0-1--3-0-0-3-0-0-3-0-0-3-0-0-3-0-5--|-----|
                  *   *      * *   * *   * *   * *   *

end on
|---------------------------------|-----|
|---------------------------------|-----|
|--------------------5-5-5--------|-----|
|--6-6-6-5-5-5-3-3-3-5-5-5-0-0-0--|--0--|
|--6-6-6-5-5-5-3-3-3-3-3-3-0-0-0--|--0--|
|--6-6-6-5-5-5-3-3-3-------0-0-0--|--0--|
* * *

|----------------------------------------------------------------|
|----------------------------------------------------------------|
|----------------------------------------------------------------|
|--3-0-0-3-0-0-3-0-0-3-0-0-3-0-5--3-0-0-3-0-0-3-0-0-3-0-0-6-5-3--|
|--3-0-0-3-0-0-3-0-0-3-0-0-3-0-5--3-0-0-3-0-0-3-0-0-3-0-0-6-5-3--|
|--3-0-0-3-0-0-3-0-0-3-0-0-3-0-5--3-0-0-3-0-0-3-0-0-3-0-0-6-5-3--|

Chorus: end of chorus
|---------------------------------------------------------|-----|
|---------------------------------------------------------|-----|
|---------------------------------------------------------|--4--|
|--0-0-0-0-0-6--3-0-5-0-1--3-0-0-3-0-0-3-0-0-3-0-0-3-0-5--|--5--|
|--0-0-0-0-0-6--3-0-5-0-1--3-0-0-3-0-0-3-0-0-3-0-0-3-0-5--|--5--|
|--0-0-0-0-0-6--3-0-5-0-1--3-0-0-3-0-0-3-0-0-3-0-0-3-0-5--|-----|
                  *   *      * *   * *   * *   * *   *


Back