web space | free hosting | Business WebSite Hosting | Free Website Submission | shopping cart | php hosting
Lamb of God
tuning: standard
tabbed by daria - daria6666@hotmail.com

Intro: acoustic guitar 1:
|-----------------0------0-----|
|--1--------------1------0-----|
|--2---4--2--0----2---4--2--0--|
|--2---5--3--2----2---5--3--2--|
|------5--3--2----0---5--3--2--|
|------3--1--0--------3--1--0--|

Verse: acoustic guitar 1:
|------0-------0--\--0--|
|------1-------0--\--0--|
|------2-------4--\--2--|
|----2-2-------5--\--3--|
|--0---0-----5-5--\--3--|
|----------3---3--\--1--|

Bridge: acoustic guitar 1:
|--0-0-0-0-0-0-0-0------------|
|--1-1-1-1-1-1-1-1------------|
|--2-2-2-2-2-2-2-2--4-4--2-2--|
|--2-2-2-2-2-2-2-2--5-5--3-3--|
|--0-0-0-0-0-0-0-0--5-5--3-3--|
|-------------------3-3--1-1--|

guitar 2:
|--8-5--8-5--8-5--8-5--7-5--7-5b(1/4)--|
|--------------------------------------|
|--------------------------------------|
|--------------------------------------|
|--------------------------------------|
|--------------------------------------|

before verse 2:
|-----------------0------0-----|
|--1--------------1------0-----|
|--2---4--2--0----2---4--2--0--|
|--2---5--3--2----2---5--3--2--|
|------5--3--2----0---5--3--2--|
|------3--1--0--------3--1--0--|

Verse 2: acoustic guitar 1:
|------0-------0--\--0--|
|------1-------0--\--0--|
|------2-------4--\--2--|
|----2-2-------5--\--3--|
|--0---0-----5-5--\--3--|
|----------3---3--\--1--|

guitar 3:
|---------------|
|---------------|
|---------------|
|--10--9--7--5--|
|---------------|
|---------------|

Bridge: acoustic guitar 1:
|--0-0-0-0-0-0-0-0------------|
|--1-1-1-1-1-1-1-1------------|
|--2-2-2-2-2-2-2-2--4-4--2-2--|
|--2-2-2-2-2-2-2-2--5-5--3-3--|
|--0-0-0-0-0-0-0-0--5-5--3-3--|
|-------------------3-3--1-1--|

guitar 2:
|--8-5--8-5--8-5--8-5--7-5--7-5b(1/4)--|
|--------------------------------------|
|--------------------------------------|
|--------------------------------------|
|--------------------------------------|
|--------------------------------------|

Chorus: acoustic guitar 1
|--0-0-0-0-0-0-0-0-0-0-3-3-3-3-3-3-3-3-3-3-1-1-1-1-1-1-1-1-1-1--
|--1-1-1-1-1-1-1-1-1-1-3-3-3-3-3-3-3-3-3-3-1-1-1-1-1-1-1-1-1-1--
|--0-0-0-0-0-0-0-0-0-0-4-4-4-4-4-4-4-4-4-4-2-2-2-2-2-2-2-2-2-2--
|--2-2-2-2-2-2-2-2-2-2-5-5-5-5-5-5-5-5-5-5-3-3-3-3-3-3-3-3-3-3--
|--3-3-3-3-3-3-3-3-3-3-5-5-5-5-5-5-5-5-5-5-3-3-3-3-3-3-3-3-3-3--
|----------------------3-3-3-3-3-3-3-3-3-3-1-1-1-1-1-1-1-1-1-1--

|--1-1-1-1-1-1-1-1-1-1--|
|--1-1-1-1-1-1-1-1-1-1--|
|--2-2-2-2-2-2-2-2-2-2--|
|--3-3-3-3-3-3-3-3-3-3--|
|--3-3-3-3-3-3-3-3-3-3--|
|--1-1-1-1-1-1-1-1-1-1--|

Interlude: guitar 2:
|-----------------------------------------|
|-----------3-3---3-5------------3--------|
|--2--2-4-5-----5-----2-2--2-4-5---5-4-2--|
|-----------------------------------------|
|-----------------------------------------|
|-----------------------------------------|

Chorus: acoustic guitar 1
|--0-0-0-0-0-0-0-0-0-0-3-3-3-3-3-3-3-3-3-3-1-1-1-1-1-1-1-1-1-1--
|--1-1-1-1-1-1-1-1-1-1-3-3-3-3-3-3-3-3-3-3-1-1-1-1-1-1-1-1-1-1--
|--0-0-0-0-0-0-0-0-0-0-4-4-4-4-4-4-4-4-4-4-2-2-2-2-2-2-2-2-2-2--
|--2-2-2-2-2-2-2-2-2-2-5-5-5-5-5-5-5-5-5-5-3-3-3-3-3-3-3-3-3-3--
|--3-3-3-3-3-3-3-3-3-3-5-5-5-5-5-5-5-5-5-5-3-3-3-3-3-3-3-3-3-3--
|----------------------3-3-3-3-3-3-3-3-3-3-1-1-1-1-1-1-1-1-1-1--

|--1-1-1-1-1-1-1-1-1-1--|
|--1-1-1-1-1-1-1-1-1-1--|
|--2-2-2-2-2-2-2-2-2-2--|
|--3-3-3-3-3-3-3-3-3-3--|
|--3-3-3-3-3-3-3-3-3-3--|
|--1-1-1-1-1-1-1-1-1-1--|

guitar 3:
|--8-7-5-3--5-5-7-5-3--5-5--3-5-5-3--|
|------------------------------------|
|------------------------------------|
|------------------------------------|
|------------------------------------|
|------------------------------------|

Outro: acoustic guitar 1:
|------0-------0--\--0--|
|------1-------0--\--0--|
|------2-------4--\--2--|
|----2-2-------5--\--3--|
|--0---0-----5-5--\--3--|
|----------3---3--\--1--|

Outro: guitar 2:
|-----------------------|
|-----------3------3----|
|--2--2-4-5---3-5----2--|
|-----------------------|
|-----------------------|
|-----------------------|


Back