web space | free hosting | Business Hosting | Free Website Submission | shopping cart | php hosting
Irresponsible Hate Anthem
tuning: standard
tabbed by daria - daria6666@hotmail.com

p.m.=palm mute
\=slide

Intro:
|----------------------------------------------------------------------
|----------------------------------------------------------------------
|----------------------------------------------------------------------
|--4-4-4-7-7-7-9-9-10-10-10-9-9-9-7-7--4-4-4-7-7-7-9-9--2-2-2-2-2-2-3--
|--4-4-4-7-7-7-9-9-10-10-10-9-9-9-7-7--4-4-4-7-7-7-9-9--2-2-2-2-2-2-3--
|--2-2-2-5-5-5-7-7--8--8--8-7-7-7-5-5--2-2-2-5-5-5-7-7--0-0-0-0-0-0-1--

|----------------------------------------------------------------------|
|----------------------------------------------------------------------|
|------------------------------------------------------9-9-9-9-9-9-10\-|
|-4-4-4-7-7-7-9-9-10-10-10-9-9-9-7-7--4-4-4-7-7-7-9-9--9-9-9-9-9-9-10\-|
|-4-4-4-7-7-7-9-9-10-10-10-9-9-9-7-7--4-4-4-7-7-7-9-9--7-7-7-7-7-7--8\-|
|-2-2-2-5-5-5-7-7--8--8--8-7-7-7-5-5--2-2-2-5-5-5-7-7------------------|

Chorus: 1:06:
|----------------------------------------------------------------------
|----------------------------------------------------------------------
|----------------------------------------------------------------------
|--4-4-4-7-7-7-9-9-10-10-10-9-9-9-7-7--4-4-4-7-7-7-9-9--2-2-2-2-2-2-3--
|--4-4-4-7-7-7-9-9-10-10-10-9-9-9-7-7--4-4-4-7-7-7-9-9--2-2-2-2-2-2-3--
|--2-2-2-5-5-5-7-7--8--8--8-7-7-7-5-5--2-2-2-5-5-5-7-7--0-0-0-0-0-0-1--

|----------------------------------------------------------------------|
|----------------------------------------------------------------------|
|------------------------------------------------------9-9-9-9-9-9-10\-|
|-4-4-4-7-7-7-9-9-10-10-10-9-9-9-7-7--4-4-4-7-7-7-9-9--9-9-9-9-9-9-10\-|
|-4-4-4-7-7-7-9-9-10-10-10-9-9-9-7-7--4-4-4-7-7-7-9-9--7-7-7-7-7-7--8\-|
|-2-2-2-5-5-5-7-7--8--8--8-7-7-7-5-5--2-2-2-5-5-5-7-7------------------|

Verse 2: play a bunch of times
|---------------|
|---------------|
|---------------|
|--4-4-4-4-4-4--|
|--4-4-4-4-4-4--|
|--2-2-2-2-2-2--|
p.m.----------

Chorus: 1:36:
|----------------------------------------------------------------------
|----------------------------------------------------------------------
|----------------------------------------------------------------------
|--4-4-4-7-7-7-9-9-10-10-10-9-9-9-7-7--4-4-4-7-7-7-9-9--2-2-2-2-2-2-3--
|--4-4-4-7-7-7-9-9-10-10-10-9-9-9-7-7--4-4-4-7-7-7-9-9--2-2-2-2-2-2-3--
|--2-2-2-5-5-5-7-7--8--8--8-7-7-7-5-5--2-2-2-5-5-5-7-7--0-0-0-0-0-0-1--

|----------------------------------------------------------------------|
|----------------------------------------------------------------------|
|------------------------------------------------------9-9-9-9-9-9-10\-|
|-4-4-4-7-7-7-9-9-10-10-10-9-9-9-7-7--4-4-4-7-7-7-9-9--9-9-9-9-9-9-10\-|
|-4-4-4-7-7-7-9-9-10-10-10-9-9-9-7-7--4-4-4-7-7-7-9-9--7-7-7-7-7-7--8\-|
|-2-2-2-5-5-5-7-7--8--8--8-7-7-7-5-5--2-2-2-5-5-5-7-7------------------|

right after chorus:
|--------------------------------------------------------------
|--------------------------------------------------------------
|-----5-4--2-4-2-----5-4--2-4-2-----5-4--2-4-2-----------------
|--4--5-4--2-4-2--4--5-4--2-4-2--4--5-4--2-4-2--2-2-2-2-2-2-3--
|--4--3-2--0-2-0--4--3-2--0-2-0--4--3-2--0-2-0--2-2-2-2-2-2-3--
|--2--------------2--------------2--------------0-0-0-0-0-0-1--

|-----------------------------------------------------------------|
|-----------------------------------------------------------------|
|-----5-4--2-4-2-----5-4--2-4-2-----5-4--2-4-2--------------------|
|--4--5-4--2-4-2--4--5-4--2-4-2--4--5-4--2-4-2--2-2-2-2-2-2-3--4--|
|--4--3-2--0-2-0--4--3-2--0-2-0--4--3-2--0-2-0--2-2-2-2-2-2-3--4--|
|--2--------------2--------------2--------------0-0-0-0-0-0-1--2--|

Bridge:
|-------------------------------------------------|
|-----------------------------------------11------|
|--11--12--11--12--11-12--11--12--11--12------12--|
|-------------------------------------------------|
|-------------------------------------------------|
|-------------------------------------------------|

Chorus: 2:38:
|----------------------------------------------------------------------
|----------------------------------------------------------------------
|----------------------------------------------------------------------
|--4-4-4-7-7-7-9-9-10-10-10-9-9-9-7-7--4-4-4-7-7-7-9-9--2-2-2-2-2-2-3--
|--4-4-4-7-7-7-9-9-10-10-10-9-9-9-7-7--4-4-4-7-7-7-9-9--2-2-2-2-2-2-3--
|--2-2-2-5-5-5-7-7--8--8--8-7-7-7-5-5--2-2-2-5-5-5-7-7--0-0-0-0-0-0-1--

|----------------------------------------------------------------------|
|----------------------------------------------------------------------|
|------------------------------------------------------9-9-9-9-9-9-10\-|
|-4-4-4-7-7-7-9-9-10-10-10-9-9-9-7-7--4-4-4-7-7-7-9-9--9-9-9-9-9-9-10\-|
|-4-4-4-7-7-7-9-9-10-10-10-9-9-9-7-7--4-4-4-7-7-7-9-9--7-7-7-7-7-7--8\-|
|-2-2-2-5-5-5-7-7--8--8--8-7-7-7-5-5--2-2-2-5-5-5-7-7------------------|

right after chorus:
|--------------------------------------------------------------
|--------------------------------------------------------------
|-----5-4--2-4-2-----5-4--2-4-2-----5-4--2-4-2-----------------
|--4--5-4--2-4-2--4--5-4--2-4-2--4--5-4--2-4-2--2-2-2-2-2-2-3--
|--4--3-2--0-2-0--4--3-2--0-2-0--4--3-2--0-2-0--2-2-2-2-2-2-3--
|--2--------------2--------------2--------------0-0-0-0-0-0-1--

|-----------------------------------------------------------------|
|-----------------------------------------------------------------|
|-----5-4--2-4-2-----5-4--2-4-2-----5-4--2-4-2--------------------|
|--4--5-4--2-4-2--4--5-4--2-4-2--4--5-4--2-4-2--2-2-2-2-2-2-3--4--|
|--4--3-2--0-2-0--4--3-2--0-2-0--4--3-2--0-2-0--2-2-2-2-2-2-3--4--|
|--2--------------2--------------2--------------0-0-0-0-0-0-1--2--|

Bridge:
|-------------------------------------------------|
|-----------------------------------------11------|
|--11--12--11--12--11-12--11--12--11--12------12--|
|-------------------------------------------------|
|-------------------------------------------------|
|-------------------------------------------------|

Chorus:
|----------------------------------------------------------------------
|----------------------------------------------------------------------
|----------------------------------------------------------------------
|--4-4-4-7-7-7-9-9-10-10-10-9-9-9-7-7--4-4-4-7-7-7-9-9--2-2-2-2-2-2-3--
|--4-4-4-7-7-7-9-9-10-10-10-9-9-9-7-7--4-4-4-7-7-7-9-9--2-2-2-2-2-2-3--
|--2-2-2-5-5-5-7-7--8--8--8-7-7-7-5-5--2-2-2-5-5-5-7-7--0-0-0-0-0-0-1--

|----------------------------------------------------------------------|
|----------------------------------------------------------------------|
|------------------------------------------------------9-9-9-9-9-9-10\-|
|-4-4-4-7-7-7-9-9-10-10-10-9-9-9-7-7--4-4-4-7-7-7-9-9--9-9-9-9-9-9-10\-|
|-4-4-4-7-7-7-9-9-10-10-10-9-9-9-7-7--4-4-4-7-7-7-9-9--7-7-7-7-7-7--8\-|
|-2-2-2-5-5-5-7-7--8--8--8-7-7-7-5-5--2-2-2-5-5-5-7-7------------------|

right after chorus:
|--------------------------------------------------------------
|--------------------------------------------------------------
|-----5-4--2-4-2-----5-4--2-4-2-----5-4--2-4-2-----------------
|--4--5-4--2-4-2--4--5-4--2-4-2--4--5-4--2-4-2--2-2-2-2-2-2-3--
|--4--3-2--0-2-0--4--3-2--0-2-0--4--3-2--0-2-0--2-2-2-2-2-2-3--
|--2--------------2--------------2--------------0-0-0-0-0-0-1--

|-----------------------------------------------------------------|
|-----------------------------------------------------------------|
|-----5-4--2-4-2-----5-4--2-4-2-----5-4--2-4-2--------------------|
|--4--5-4--2-4-2--4--5-4--2-4-2--4--5-4--2-4-2--2-2-2-2-2-2-3--4--|
|--4--3-2--0-2-0--4--3-2--0-2-0--4--3-2--0-2-0--2-2-2-2-2-2-3--4--|
|--2--------------2--------------2--------------0-0-0-0-0-0-1--2--|

Ending:
|---------------------------------|
|---------------------------------|
|--9-9-9-9-9-9-10-----------------|
|--9-9-9-9-9-9-10--4--4--4--4--4--|
|--7-7-7-7-7-7--8--4--4--4--4--4--|
|------------------2--2--2--2--2--|


Back