web space | free website | Business Web Hosting | Free Website Submission | shopping cart | php hosting
In The Shadow Of The Valley Of Death
tuning: standard
tabbed by daria - daria6666@hotmail.com

^=strum down
v=strum up
h=hammer on
\=slide

Intro/Verse: guitar 1:
|--0-0-0-0-0-0-0-0-0---0-0-0-0-0-0-0--|
|--0-0-0-0-0-0-0-0-0h1-1-1-1-1-1-1-1--|
|--2-2-2-2-2-2-2-2-2---2-2-2-2-2-2-2--|
|--2-2-2-2-2-2-2-2-2---2-2-2-2-2-2-2--| x4
|--0-0-0-0-0-0-0-0-0---0-0-0-0-0-0-0--|
|--0-0-0-0-0-0-0-0-0---0-0-0-0-0-0-0--|
         ^ v   ^ v         ^ v   ^ v

|--3-3-3-3-3-3-3-3--0-0-0-0-0-0-0-0--|
|--0-0-0-0-0-0-0-0--1-1-1-1-1-1-1-1--|
|--0-0-0-0-0-0-0-0--2-2-2-2-2-2-2-2--|
|--0-0-0-0-0-0-0-0--2-2-2-2-2-2-2-2--| x2
|--2-2-2-2-2-2-2-2--0-0-0-0-0-0-0-0--|
|--3-3-3-3-3-3-3-3--0-0-0-0-0-0-0-0--|
         ^ v   ^ v        ^ v     ^ v

|--0-0-0-0-0-0-0-0--3-3-3-3-3-3-3-3--1-1-1-1-1-1-1-1--
|--1-1-1-1-1-1-1-1--0-0-0-0-0-0-0-0--1-1-1-1-1-1-1-1--
|--0-0-0-0-0-0-0-0--0-0-0-0-0-0-0-0--2-2-2-2-2-2-2-2--
|--2-2-2-2-2-2-2-2--0-0-0-0-0-0-0-0--3-3-3-3-3-3-3-3--
|--3-3-3-3-3-3-3-3--2-2-2-2-2-2-2-2--3-3-3-3-3-3-3-3--
|--0-0-0-0-0-0-0-0--3-3-3-3-3-3-3-3--1-1-1-1-1-1-1-1--
         ^ v   ^ v        ^ v   ^ v        ^ v   ^ v

|--0-0-0-0-0-0-0-0--0-0-0-0-0-0-0-0--3-3--|
|--1-1-1-1-1-1-1-1--1-1-1-1-1-1-1-1--0-0--|
|--2-2-2-2-2-2-2-2--0-0-0-0-0-0-0-0--0-0--|
|--2-2-2-2-2-2-2-2--2-2-2-2-2-2-2-2--0-0--|
|--0-0-0-0-0-0-0-0--3-3-3-3-3-3-3-3--2-2--|
|--0-0-0-0-0-0-0-0--0-0-0-0-0-0-0-0--3-3--|
         ^ v   ^ v        ^ v   ^ v

guitar 2: 1:08
|----------|   |---------------------------------------------------|
|----------|   |---------------------------------------------------|
|----5--7--|x4 |--7----7-----7----7----5--5\4\3--7--5---5---5------|
|--7-------|   |-----7---7------7---7-----------------7---7---5-3--|
|----------|   |---------------------------------------------------|
|----------|   |---------------------------------------------------|

guitar 3: 2:10
|--8------8------8-----|
|----10-----10-----10--|
|-------9------9-------|
|----------------------|
|----------------------|
|----------------------|


Back