web space | free website | Business Web Hosting | Free Website Submission | shopping cart | php hosting
A place in the dirt
tuning: standard
tabbed by daria - daria6666@hotmail.com

/ and \=slide

Verse: synth arr. for guitar 2:
|-----------------19--17--15--14--|
|---------------------------------|
|--12-----12----------------------|
|-----11-----11-------------------|
|---------------------------------|
|---------------------------------|

guitar 1: x8 each
|--2---2---2---2---2---0---3---2--|
|--3---2---3---2---3---2---3---2--|
|--4---3---4---3---4---2---0---3--|
|--4---4---4---4---4---2---0---4--|
|--2---4---2---4---2---0---2---4--|
|------2-------2-----------3---2--|

Chorus: x8 each
|--------------------------------------------|
|--------------------------------------------|
|--------------------------------------------|
|--5--/--8--\--5--/--8--\--5--/--8--\--5--4--|
|--5--/--8--\--5--/--8--\--5--/--8--\--5--4--|
|--3--/--6--\--3--/--6--\--3--/--6--\--3--2--|

Verse 2: guitar 1: x8 each except for last chord, play that only once
|--2---2---2---2---2---0---3---2--|
|--3---2---3---2---3---2---3---2--|
|--4---3---4---3---4---2---0---3--|
|--4---4---4---4---4---2---0---4--|
|--2---4---2---4---2---0---2---4--|
|------2-------2-----------3---2--|

Chorus:
|--------------------------------------------|
|--------------------------------------------|
|--------------------------------------------|
|--5--/--8--\--5--/--8--\--5--/--8--\--5--4--|
|--5--/--8--\--5--/--8--\--5--/--8--\--5--4--|
|--3--/--6--\--3--/--6--\--3--/--6--\--3--2--|

Outro: guitar 1: x8 each except for last chord, play that only once
|--2---2---2---2---2---0---3---2--|
|--3---2---3---2---3---2---3---2--|
|--4---3---4---3---4---2---0---3--|
|--4---4---4---4---4---2---0---4--|
|--2---4---2---4---2---0---2---4--|
|------2-------2-----------3---2--|



Back