StatTrack
web space | free hosting | Business Hosting Services | Free Website Submission | shopping cart | php hosting
apc-thinking of you guitar tab Thinking Of You
tuning: down one and one half steps (low to high: C# F# B E G# c#)
tabbed by daria - daria6666@hotmail.com

b=bend

Intro:
|----------------------------------------------------------------------|
|----------------------------------------------------------------------|
|----------------------------------------------------------------------|
|-5-5-5-5-5-5-5-5-5-5-5-5-5-5-5-5-5-5-2-2-2-2-2-2-2-2-2-2-2-2-2-2-2-2-2|
|----------------------------------------------------------------------|
|----------------------------------------------------------------------|

Chorus:
|-----------------------------------------------|
|-----------------------------------------------|
|-----------------------------------------------|
|--7-7-7--10--10-10-10~~~~~~--7-7-7--10b--------|
|--7-7-7--10--10-10-10~~~~~~--7-7-7--10b(1/4)---|
|--5-5-5---8---8--8--8~~~~~~--5-5-5---8b--------|

Intro again before verse 2:
|----------------------------------------------------------------------|
|----------------------------------------------------------------------|
|----------------------------------------------------------------------|
|-5-5-5-5-5-5-5-5-5-5-5-5-5-5-5-5-5-5-2-2-2-2-2-2-2-2-2-2-2-2-2-2-2-2-2|
|----------------------------------------------------------------------|
|----------------------------------------------------------------------|

Chorus:
|-----------------------------------------------|
|-----------------------------------------------|
|-----------------------------------------------|
|--7-7-7--10--10-10-10~~~~~~--7-7-7--10b--------|
|--7-7-7--10--10-10-10~~~~~~--7-7-7--10b(1/4)---|
|--5-5-5---8---8--8--8~~~~~~--5-5-5---8b--------|

"Thinking of you..":2:49
|-------------------------------|
|-------------------------------|
|-------------------------------|
|--5-----------5------------5---|
|--5-----------5------------5---|
|--3-----------3------------3---|

guitar 2: 3:02: this is the general idea...i tried to get it as close as i could
|---------------------------------------------------------------------
|--12-12-12-12-12-12-14--12-12-12-12-12-12--15--15-15-15-15-15-15-14--
|---------------------------------------------------------------------
|---------------------------------------------------------------------
|---------------------------------------------------------------------
|---------------------------------------------------------------------

|--------------------------------------------------------------------
|--15-15-15-15-15-15-14-15--12-12-12-12-12-12-14--12-12-12-12-12-12--
|--------------------------------------------------------------------
|--------------------------------------------------------------------
|--------------------------------------------------------------------
|--------------------------------------------------------------------

|--15-15-15-15-15-15------------------------------------------
|---------------------12-12-12-12-12-12-14--12-12-12-12-12-12-
|-------------------------------------------------------------
|-------------------------------------------------------------
|-------------------------------------------------------------
|-------------------------------------------------------------

|--12-12-12-12-12-12-------------------------------------------
|---------------------12-12-12-12-12-12-14--12-12-12-12-12-12--
|--------------------------------------------------------------
|--------------------------------------------------------------
|--------------------------------------------------------------
|--------------------------------------------------------------

|--15-15-15-15-15-15--|
|---------------------|
|---------------------|
|---------------------|
|---------------------|
|---------------------|
~note:~ thereís more to this guitar part, but itís hard to try and figure out.

Chorus\Outro:
|-----------------------------------------------|
|-----------------------------------------------|
|-----------------------------------------------|
|--7-7-7--10--10-10-10~~~~~~--7-7-7--10b--------|
|--7-7-7--10--10-10-10~~~~~~--7-7-7--10b(1/4)---|
|--5-5-5---8---8--8--8~~~~~~--5-5-5---8b--------|



Back